บ้านCalendarช่วยเหลือค้นหารายชื่อสมาชิกกลุ่มผู้ใช้สมัครสมาชิก(Register)เข้าสู่ระบบ(Log in)

Share | 
 

 SCANDAL-Shunkan Sentimental with Tab

อ่านหัวข้อก่อนหน้า อ่านหัวข้อถัดไป Go down 
ผู้ตั้งข้อความ
Scandal_mami
SCANDAL Member
SCANDAL Member


จำนวนข้อความ : 2
Join date : 12/03/2013

ตั้งหัวข้อเรื่อง: SCANDAL-Shunkan Sentimental with Tab   Tue Mar 12, 2013 4:22 pm

Pre-Intro
e|-------------|
B|-------------|
G|-11-10-9-8-7-|
D|-------------|
A|-------------|
E|-------------|


Intro (00:04)
Lead
e|---------------------------------------------------------------------------|
B|----10-12-12b14b12-10-----12-12b1412-10-----12-12b1412-10----|
G|-11------------------------11--------------------11------------------11-|
D|---------------------------------------------------------------------------|
A|---------------------------------------------------------------------------|
E|---------------------------------------------------------------------------|

e|-------------12--10-9------------|
B|----------10----------10-9-10-12-|
G|-9-11--11------------------------|
D|---------------------------------|
A|---------------------------------|
E|---------------------------------|

e|-------------------------------------------------------------|
B|-12-12b1412-10-----12-12b1412-10--------------10----|
G|-------------------11-------------------11--9-10-11----11-|
D|--------------------------------------------------------------|
A|--------------------------------------------------------------|
E|---------------------------------------------------------------|

Rhythm
e|------------------------------------|-----------------------|
B|------------------------------------|-----------------------|
G|------------------------------------|-----------------------|
D|-7777-9999-11-11-11-11-6666-|-7777-9999-7~~-7\-|
A|-5555-7777--9--9--9---9-4444--|-5555-7777-5~~-5\-|
E|-------------------------------------|-----------------------|


Verse o = x2 + x1
e||----------------------------------------------------||----------------------------------|
B||----------------------------------------------------||----------------------------------|
G||o-------------------------------------------------o||----------------------------------|
D||o-------------66666666-77777777------------o||-------------66666666-7~~-9~~--------|
A||--44444444-44444444-55555555-77777777--||-44444444-44444444-5~~-7~~-7-7777-|
E||--22222222--------------------------55555555--||-22222222-------------------5-5555-|


Pre-Chorus
e|--------------------------------------------------------------------------------------|
B|--------------------------------------------------------------------------------------|
G|--------------------------------------------------------------------------------------|
D|-99--99--99--9\--------------------------7777777-88888888-99999999-6-666-|
A|-77--77--77--7\--44444444-77777777-5555555-66666666-77777777-4-444-|
E|--------------------22222222-55555555--------------------------------------------|


Chorus
e|---------------------------------------------------------------------|
B|--------------------------------------------------------------------|
G|--------------------------------------------------------------------|
D|-77777777-99999999-11-11-11-11-11-11-11-11-66666666-|
A|-55555555-77777777--9--9--9---9---9--9--9---9-44444444-|
E|--------------------------------------------------------------------|

e|-----------------------------------------------|
B|-----------------------------------------------|
G|-----------------------------------------------|
D|-77777777-99999999-------------6-6-6-6-|
A|-55555555-77777777-77777777-4-4-4-4-|
E|--------------------------55555555----------|

e|----------------------------------------------------------------------|
B|----------------------------------------------------------------------|
G|----------------------------------------------------------------------|
D|-77777777-99999999-11-11-11-11-11-11-11-11---66666666-|
A|-55555555-77777777--9--9--9---9--9---9--9---9----44444444-|
E|-----------------------------------------------------------------------|

e|-------------------------------------------------|
B|-------------------------------------------------|
G|-------------------------------------------------|
D|-7777777777777777-99999999--10-10-10-|
A|-5555555555555555-77777777---8--8---8-|
E|--------------------------------------------------|


Play 2nd part of Intro
Play Verse
Play Pre-Chorus
Play Chorus


Solo (2:16)
Lead
e|--------------------------------------------------------------|
B|-14-14-14-14-14\9-9-101010101010/121212121212\9\5-|
G|--x--x--x--x--x--\x-x--x-x-x-x-x-x--/-x-x-x-x-x-x\x\x-|
D|-11-11-11-11-11\6-6--7-7-7-7-7-7--/-9-9-9-9-9-9\6\2-|
A|---------------------------------------------------------------|
E|---------------------------------------------------------------|

e|------------12-------------------------------------14~~~~\----|
B|-10---12---------12---10----12b14--14r12-11----------------|
G|----9-----9----9----9--------------------------------------------|
D|------------------------------------------------------------------|
A|------------------------------------------------------------------|
E|------------------------------------------------------------------|

Rhythm
e|--------------------------------------------------|
B|--------------------------------------------------|
G|-77777777-------------99999999-66666666-|
D|-77777777-77777777-99999999-66666666-|
A|-55555555-77777777-77777777-44444444-|
E|-------------55555555--------------------------|


Bridge (2:28)
e|-------------------------------------------------------------|
B|-------------------------------------------------------------|
G|-77777777---------------------------------11-11\--9-9\-|
D|-77777777-77777777-55555555-4444--11-11\--9-9\-|
A|-55555555-77777777-55555555-4444---9--9\---7-7\-|
E|-------------55555555-22222222-2222------------------|

e|-----------------------------------------------------------|----------------|
B|-----------------------------------------------------------|----------------|
G|-77777777-------------99999999-11-11-1010-99-88-|-66-66-6-666-|
D|-77777777-77777777-99999999--x--x--x-x--xx-xx-|-66-66-6-666-|
A|-55555555-77777777-77777777--9--9--8-8--77-66-|-44-44-4-444-|
E|-------------55555555-----------------------------------|----------------|


Breakdown (2:53)
e|-*12*12*12*12*----*12*12*12*12*----*12*12*12*12*-----*9*9*---------|
B|--------------------------------------------------------------------------*10*10*-|
G|-------------------------------------------------------------------------------------|
D|-------------------------------------------------------------------------------------|
A|-------------------------------------------------------------------------------------|
E|--------------------------------------------------------------------------------------|

e|-*12*12*12*12*----*12*12*12*12*----*9*9*----------|
B|---------------------------------------------------------------|
G|-----------------------------------------------------6-6-6-6-|
D|-----------------------------------------------------6-6-6-6-|
A|-----------------------------------------------------4-4-4-4-|
E|---------------------------------------------------------------|


Final Chorus (3:05)
e|------------------------------------------|-----------------------------------------------------|
B|------------------------------------------|-----------------------------------------------------|
G|-7~~-7/-9~~-9/-11~~-11\-6~~-6/-|-7~~-7/-9~~-9/-11~~--12-121212-12121212-|
D|-7~~-7/-9~~-9/-11~~-11\-6~~-6/-|-7~~-7/-9~~-9/-11~~--12-121212-12121212-|
A|-5~~-5/-7~~-7/--9~~---9\-4~~-4/-|-5~~-5/-7~~-7/--9~~--10-101010-10101010-|
E|------------------------------------------|-----------------------------------------------------|

e|-------------------------------|-------------------------------------|
B|-------------------------------|-------------------------------------|
G|-7~~-7/-9~~-9/-11~~-11\-6~~-6/-|-7777777777777777-99999999--10-10-10-|
D|-7~~-7/-9~~-9/-11~~-11\-6~~-6/-|-7777777777777777-99999999--10-10-10-|
A|-5~~-5/-7~~-7/--9~~--9\-4~~-4/-|-5555555555555555-77777777---8--8--8-|
E|-------------------------------|-------------------------------------|


Outro (3:28)
Lead Guitar Mami
e|-----------------------------------------------------------------------------|
B|----10-12-12b14b12-10-----12-12b1412-10-----12-12b1412-10-----|
G|-11-----------------------11--------------------11--------------------11-|
D|----------------------------------------------------------------------------|
A|----------------------------------------------------------------------------|
E|----------------------------------------------------------------------------|

e|--------------12--10-9--------------|
B|-----------10----------10-9-10-12-|
G|-9-11--11--------------------------|
D|-------------------------------------|
A|-------------------------------------|
E|-------------------------------------|

e|----------------------------------------------------------------|
B|-12-12b1412-10-----12-12b1412-10-------------10-------|
G|---------------11----------------11--9-10-11----11--\------|
D|---------------------------------------------------------------|
A|---------------------------------------------------------------|
E|---------------------------------------------------------------|

Rhythm Guitar Harunu
e|---------------------------------|------------------------------------------------|
B|---------------------------------|------------------------------------------------|
G|-7777-9999-11111111-6666-|-7777-9999--1111--1111--1111--1111--\-|
D|-7777-9999-11111111-6666-|-7777-9999--1111--1111--1111--1111--\-|
A|-5555-7777--9-9-9-9-4444---|-5555-7777---9--9---9--9---9-9---9--9--\-|
E|----------------------------------|-----------------------------------------------|
ขึ้นไปข้างบน Go down
ดูข้อมูลส่วนตัว
 
SCANDAL-Shunkan Sentimental with Tab
อ่านหัวข้อก่อนหน้า อ่านหัวข้อถัดไป ขึ้นไปข้างบน 
หน้า 1 จาก 1

Permissions in this forum:คุณไม่สามารถพิมพ์ตอบ
 :: SCANDAL Fanclub : The Most Powerful Japanese Girlie Pop Rock Band :: SCANDAL Tabs & Chords-
ไปที่: